Страница 1 из 1

Может каму-нибудь нужны аккорды некоторых песен группы МиМ

СообщениеДобавлено: 20 фев 2012, 17:18
dima1995
Вступление и куплет:
E5 F5 E5
F5
e|-----------------|-----------------|-----------------|-----------------|
H|-----------------|-----------------|-----------------|-----------------|
G|-----------------|-----------------|-----------------|-----------------|
D|---------4-------|-------------5---|---------4-------|-------------2---|
A|-----2-----------|---------3-------|-----2-----------|---------3-------|
E|-0---------------|-----1-----------|-0---------------|-----1-----------|
E5 F5 E5
F5
e|-----------------|-----------------|-----------------|-----------------|
H|-----------------|-----------------|-----------------|-----------------|
G|-----------------|-----------------|-----------------|-----------------|
D|---------4-------|-------------5---|---------4-------|---------2-------|
A|-----2-----------|---------3-------|-----2-----------|-----3-------3---|
E|-0---------------|-----1-----------|-0-----------0---|-1---------------|
Куплет:
Что-то внутри как у стай соединяет нас
Прости, прости, с собой возьми глоток моих
фраз
Широким морем я буду плыть по дальним странам
колесить
Поймаю ветер, с ним полечу чтоб на тебя надеть
любовь-парчу
Припев:
Em(VII) C(III) Em(VII)
C(III)
Мое сеpдце без тебя, словно дикая птица без
неба.
Em(VII) C(III) Em(VII) C(III)
Без тебя моя душа, словно слабая лань без леса.
G(III) C(III) D(V)
Em(VII)
Без тебя мои глаза, как налитые гpуди без чада.
Em(VII) C(III)
Без тебя моя слеза, как pоса без утpа падает.
куплет:
Знаю где ты, знаю где я, лишь километры между
нами
Только шепни - я подхвачу, песню свою тебе шепчу
припев:
Мое сердце без тебя словно дикая птица без
неба
Без тебя моя душа словно слабая лань без
леса
Без тебя мои глаза, как налитые груди без
чада
Без тебя моя слеза, как роса без утра
падает...
Мое сердце без тебя словно дикая птица без
неба
Без тебя моя душа словно слабая лань без
леса
Без тебя мои глаза, как налитые груди без
чада
Без тебя моя слеза, как роса без утра
падает...

Re: Может каму-нибудь нужны аккорды некоторых песен группы М

СообщениеДобавлено: 21 фев 2012, 23:22
Mim-Neofit
Разумеется нужны!-) У меня на сайте, правда, нет аккордов Песен, поскольку они частенько оказываются неправильными, то я решил, что на сайте им пока нечего делать. Но на форуме выкладывайте, конечно. Только хорошо, если будете давать кратенькую справку по обозначениям.

Re: Может каму-нибудь нужны аккорды некоторых песен группы М

СообщениеДобавлено: 27 фев 2012, 18:07
Nastya 5240
спасибо за аккорды! Я, к сожалению в этом не разбераюсь,но брат как раз недавно их искал. Обычно брат наигрывает,а я напеваю свои любимые песни. особенно песня Любочка нравится!